  0
SECTION
  2
HEADER
  9
$ACADVER
  1
AC1015
  9
$ACADMAINTVER
 70
     6
  9
$DWGCODEPAGE
  3
ANSI_1254
  9
$INSBASE
 10
0.0
 20
0.0
 30
0.0
  9
$EXTMIN
 10
0.0
 20
0.0
 30
0.0
  9
$EXTMAX
 10
279.4
 20
215.9
 30
0.0
  9
$LIMMIN
 10
0.0
 20
0.0
  9
$LIMMAX
 10
279.4
 20
215.9
  9
$ORTHOMODE
 70
     0
  9
$REGENMODE
 70
     1
  9
$FILLMODE
 70
     1
  9
$QTEXTMODE
 70
     0
  9
$MIRRTEXT
 70
     1
  9
$LTSCALE
 40
1.0
  9
$ATTMODE
 70
     1
  9
$TEXTSIZE
 40
3.5
  9
$TRACEWID
 40
1.0
  9
$TEXTSTYLE
  7
Standard
  9
$CLAYER
  8
0
  9
$CELTYPE
  6
ByLayer
  9
$CECOLOR
 62
   256
  9
$CELTSCALE
 40
1.0
  9
$DISPSILH
 70
     0
  9
$DIMSCALE
 40
1.0
  9
$DIMASZ
 40
3.5
  9
$DIMEXO
 40
1.0
  9
$DIMDLI
 40
3.75
  9
$DIMRND
 40
0.0
  9
$DIMDLE
 40
0.0
  9
$DIMEXE
 40
1.0
  9
$DIMTP
 40
0.0
  9
$DIMTM
 40
0.0
  9
$DIMTXT
 40
3.5
  9
$DIMCEN
 40
2.5
  9
$DIMTSZ
 40
0.0
  9
$DIMTOL
 70
     0
  9
$DIMLIM
 70
     0
  9
$DIMTIH
 70
     1
  9
$DIMTOH
 70
     1
  9
$DIMSE1
 70
     0
  9
$DIMSE2
 70
     0
  9
$DIMTAD
 70
     1
  9
$DIMZIN
 70
     0
  9
$DIMBLK
  1

  9
$DIMASO
 70
     1
  9
$DIMSHO
 70
     1
  9
$DIMPOST
  1

  9
$DIMAPOST
  1

  9
$DIMALT
 70
     0
  9
$DIMALTD
 70
     3
  9
$DIMALTF
 40
0.0393700787
  9
$DIMLFAC
 40
1.0
  9
$DIMTOFL
 70
     1
  9
$DIMTVP
 40
0.0
  9
$DIMTIX
 70
     0
  9
$DIMSOXD
 70
     0
  9
$DIMSAH
 70
     0
  9
$DIMBLK1
  1

  9
$DIMBLK2
  1

  9
$DIMSTYLE
  2
ISO-25
  9
$DIMCLRD
 70
     0
  9
$DIMCLRE
 70
     0
  9
$DIMCLRT
 70
     0
  9
$DIMTFAC
 40
1.0
  9
$DIMGAP
 40
1.524
  9
$DIMJUST
 70
     0
  9
$DIMSD1
 70
     0
  9
$DIMSD2
 70
     0
  9
$DIMTOLJ
 70
     0
  9
$DIMTZIN
 70
     0
  9
$DIMALTZ
 70
     0
  9
$DIMALTTZ
 70
     0
  9
$DIMUPT
 70
     0
  9
$DIMDEC
 70
     2
  9
$DIMTDEC
 70
     2
  9
$DIMALTU
 70
     2
  9
$DIMALTTD
 70
     3
  9
$DIMTXSTY
  7
Standard
  9
$DIMAUNIT
 70
     0
  9
$DIMADEC
 70
     2
  9
$DIMALTRND
 40
0.0
  9
$DIMAZIN
 70
     0
  9
$DIMDSEP
 70
    44
  9
$DIMATFIT
 70
     3
  9
$DIMFRAC
 70
     0
  9
$DIMLDRBLK
  1

  9
$DIMLUNIT
 70
     2
  9
$DIMLWD
 70
    -2
  9
$DIMLWE
 70
    -2
  9
$DIMTMOVE
 70
     0
  9
$LUNITS
 70
     2
  9
$LUPREC
 70
     2
  9
$SKETCHINC
 40
1.0
  9
$FILLETRAD
 40
10.0
  9
$AUNITS
 70
     0
  9
$AUPREC
 70
     2
  9
$MENU
  1
.
  9
$ELEVATION
 40
0.0
  9
$PELEVATION
 40
0.0
  9
$THICKNESS
 40
0.0
  9
$LIMCHECK
 70
     0
  9
$CHAMFERA
 40
0.0
  9
$CHAMFERB
 40
0.0
  9
$CHAMFERC
 40
0.0
  9
$CHAMFERD
 40
0.0
  9
$SKPOLY
 70
     0
  9
$TDCREATE
 40
2458985.651533518
  9
$TDUCREATE
 40
2458985.526533518
  9
$TDUPDATE
 40
2458985.651533947
  9
$TDUUPDATE
 40
2458985.526533947
  9
$TDINDWG
 40
0.0000000116
  9
$TDUSRTIMER
 40
0.0000000116
  9
$USRTIMER
 70
     1
  9
$ANGBASE
 50
0.0
  9
$ANGDIR
 70
     0
  9
$PDMODE
 70
     0
  9
$PDSIZE
 40
-1.0
  9
$PLINEWID
 40
0.0
  9
$SPLFRAME
 70
     0
  9
$SPLINETYPE
 70
     6
  9
$SPLINESEGS
 70
     8
  9
$HANDSEED
  5
C1
  9
$SURFTAB1
 70
     6
  9
$SURFTAB2
 70
     6
  9
$SURFTYPE
 70
     6
  9
$SURFU
 70
     6
  9
$SURFV
 70
     6
  9
$UCSBASE
  2

  9
$UCSNAME
  2

  9
$UCSORG
 10
0.0
 20
0.0
 30
0.0
  9
$UCSXDIR
 10
1.0
 20
0.0
 30
0.0
  9
$UCSYDIR
 10
0.0
 20
1.0
 30
0.0
  9
$UCSORTHOREF
  2

  9
$UCSORTHOVIEW
 70
     0
  9
$UCSORGTOP
 10
0.0
 20
0.0
 30
0.0
  9
$UCSORGBOTTOM
 10
0.0
 20
0.0
 30
0.0
  9
$UCSORGLEFT
 10
0.0
 20
0.0
 30
0.0
  9
$UCSORGRIGHT
 10
0.0
 20
0.0
 30
0.0
  9
$UCSORGFRONT
 10
0.0
 20
0.0
 30
0.0
  9
$UCSORGBACK
 10
0.0
 20
0.0
 30
0.0
  9
$PUCSBASE
  2

  9
$PUCSNAME
  2

  9
$PUCSORG
 10
0.0
 20
0.0
 30
0.0
  9
$PUCSXDIR
 10
1.0
 20
0.0
 30
0.0
  9
$PUCSYDIR
 10
0.0
 20
1.0
 30
0.0
  9
$PUCSORTHOREF
  2

  9
$PUCSORTHOVIEW
 70
     0
  9
$PUCSORGTOP
 10
0.0
 20
0.0
 30
0.0
  9
$PUCSORGBOTTOM
 10
0.0
 20
0.0
 30
0.0
  9
$PUCSORGLEFT
 10
0.0
 20
0.0
 30
0.0
  9
$PUCSORGRIGHT
 10
0.0
 20
0.0
 30
0.0
  9
$PUCSORGFRONT
 10
0.0
 20
0.0
 30
0.0
  9
$PUCSORGBACK
 10
0.0
 20
0.0
 30
0.0
  9
$USERI1
 70
     0
  9
$USERI2
 70
     0
  9
$USERI3
 70
     0
  9
$USERI4
 70
     0
  9
$USERI5
 70
     0
  9
$USERR1
 40
0.0
  9
$USERR2
 40
0.0
  9
$USERR3
 40
0.0
  9
$USERR4
 40
0.0
  9
$USERR5
 40
0.0
  9
$WORLDVIEW
 70
     1
  9
$SHADEDGE
 70
     3
  9
$SHADEDIF
 70
    70
  9
$TILEMODE
 70
     1
  9
$MAXACTVP
 70
    64
  9
$PINSBASE
 10
0.0
 20
0.0
 30
0.0
  9
$PLIMCHECK
 70
     0
  9
$PEXTMIN
 10
1.0000000000E+20
 20
1.0000000000E+20
 30
1.0000000000E+20
  9
$PEXTMAX
 10
-1.0000000000E+20
 20
-1.0000000000E+20
 30
-1.0000000000E+20
  9
$PLIMMIN
 10
0.0
 20
0.0
  9
$PLIMMAX
 10
420.0
 20
297.0
  9
$UNITMODE
 70
     0
  9
$VISRETAIN
 70
     1
  9
$PLINEGEN
 70
     0
  9
$PSLTSCALE
 70
     1
  9
$TREEDEPTH
 70
  3020
  9
$CMLSTYLE
  2
Standard
  9
$CMLJUST
 70
     0
  9
$CMLSCALE
 40
20.0
  9
$PROXYGRAPHICS
 70
     1
  9
$MEASUREMENT
 70
     1
  9
$CELWEIGHT
370
    -1
  9
$ENDCAPS
280
     0
  9
$JOINSTYLE
280
     0
  9
$LWDISPLAY
290
     1
  9
$INSUNITS
 70
     4
  9
$HYPERLINKBASE
  1

  9
$STYLESHEET
  1

  9
$XEDIT
290
     1
  9
$CEPSNTYPE
380
     0
  9
$PSTYLEMODE
290
     1
  9
$FINGERPRINTGUID
  2
{a74d798f-f8b8-4f32-88d3-8f29bd20356d}
  9
$VERSIONGUID
  2
{FAEB1C32-E019-11D5-929B-00C0DF256EC4}
  9
$EXTNAMES
290
     1
  9
$PSVPSCALE
 40
0.0
  9
$OLESTARTUP
290
     0
  0
ENDSEC
  0
SECTION
  2
CLASSES
  0
CLASS
  1
ACDBDICTIONARYWDFLT
  2
AcDbDictionaryWithDefault
  3
ObjectDBX Classes
 90
        0
280
     0
281
     0
  0
CLASS
  1
VISUALSTYLE
  2
AcDbVisualStyle
  3
ObjectDBX Classes
 90
     4095
280
     0
281
     0
  0
CLASS
  1
MATERIAL
  2
AcDbMaterial
  3
ObjectDBX Classes
 90
     1153
280
     0
281
     0
  0
CLASS
  1
SCALE
  2
AcDbScale
  3
ObjectDBX Classes
 90
     1153
280
     0
281
     0
  0
CLASS
  1
TABLESTYLE
  2
AcDbTableStyle
  3
ObjectDBX Classes
 90
     4095
280
     0
281
     0
  0
CLASS
  1
MLEADERSTYLE
  2
AcDbMLeaderStyle
  3
ACDB_MLEADERSTYLE_CLASS
 90
     4095
280
     0
281
     0
  0
CLASS
  1
SUN
  2
AcDbSun
  3
SCENEOE
 90
     1153
280
     0
281
     0
  0
CLASS
  1
ACDBPLACEHOLDER
  2
AcDbPlaceHolder
  3
ObjectDBX Classes
 90
        0
280
     0
281
     0
  0
CLASS
  1
LAYOUT
  2
AcDbLayout
  3
ObjectDBX Classes
 90
        0
280
     0
281
     0
  0
ENDSEC
  0
SECTION
  2
TABLES
  0
TABLE
  2
VPORT
  5
8
330
0
100
AcDbSymbolTable
 70
     1
  0
VPORT
  5
29
330
8
100
AcDbSymbolTableRecord
100
AcDbViewportTableRecord
  2
*Active
 70
     0
 10
0.0
 20
0.0
 11
1.0
 21
1.0
 12
139.7
 22
107.95
 13
0.0
 23
0.0
 14
10.0
 24
10.0
 15
10.0
 25
10.0
 16
0.0
 26
0.0
 36
1.0
 17
0.0
 27
0.0
 37
0.0
 40
215.9
 41
1.2941176471
 42
50.0
 43
0.0
 44
0.0
 50
0.0
 51
0.0
 71
     0
 72
  2000
 73
     1
 74
     3
 75
     0
 76
     0
 77
     0
 78
     0
281
     0
 65
     1
110
0.0
120
0.0
130
0.0
111
1.0
121
0.0
131
0.0
112
0.0
122
1.0
132
0.0
 79
     0
146
0.0
  0
ENDTAB
  0
TABLE
  2
LTYPE
  5
5
330
0
100
AcDbSymbolTable
 70
     6
  0
LTYPE
  5
14
330
5
100
AcDbSymbolTableRecord
100
AcDbLinetypeTableRecord
  2
ByBlock
 70
     0
  3

 72
    65
 73
     0
 40
0.0
  0
LTYPE
  5
15
330
5
100
AcDbSymbolTableRecord
100
AcDbLinetypeTableRecord
  2
ByLayer
 70
     0
  3

 72
    65
 73
     0
 40
0.0
  0
LTYPE
  5
16
330
5
100
AcDbSymbolTableRecord
100
AcDbLinetypeTableRecord
  2
Continuous
 70
     0
  3
Solid line
 72
    65
 73
     0
 40
0.0
  0
LTYPE
  5
6E
330
5
100
AcDbSymbolTableRecord
100
AcDbLinetypeTableRecord
  2
HIDDEN
 70
     0
  3
Hidden __ __ __ __ __ __ __ __ __ __ __ __ __ __
 72
    65
 73
     2
 40
1.905
 49
1.27
 74
     0
 49
-0.635
 74
     0
  0
LTYPE
  5
6F
330
5
100
AcDbSymbolTableRecord
100
AcDbLinetypeTableRecord
  2
PHANTOM
 70
     0
  3
Phantom ______  __  __  ______  __  __  ______
 72
    65
 73
     6
 40
12.7
 49
6.35
 74
     0
 49
-1.27
 74
     0
 49
1.27
 74
     0
 49
-1.27
 74
     0
 49
1.27
 74
     0
 49
-1.27
 74
     0
  0
LTYPE
  5
70
330
5
100
AcDbSymbolTableRecord
100
AcDbLinetypeTableRecord
  2
CENTER
 70
     0
  3
Center ____ _ ____ _ ____ _ ____ _ ____ _ ____
 72
    65
 73
     4
 40
10.16
 49
6.35
 74
     0
 49
-1.27
 74
     0
 49
1.27
 74
     0
 49
-1.27
 74
     0
  0
LTYPE
  5
71
330
5
100
AcDbSymbolTableRecord
100
AcDbLinetypeTableRecord
  2
CENTERX2
 70
     0
  3
Center (2x) ________  __  ________  __  _____
 72
    65
 73
     4
 40
20.32
 49
12.7
 74
     0
 49
-2.54
 74
     0
 49
2.54
 74
     0
 49
-2.54
 74
     0
  0
LTYPE
  5
72
330
5
100
AcDbSymbolTableRecord
100
AcDbLinetypeTableRecord
  2
DOT2
 70
     0
  3
Dot (.5x) ........................................
 72
    65
 73
     2
 40
0.635
 49
0.0
 74
     0
 49
-0.635
 74
     0
  0
ENDTAB
  0
TABLE
  2
LAYER
  5
2
330
0
100
AcDbSymbolTable
 70
    17
  0
LAYER
  5
10
330
2
100
AcDbSymbolTableRecord
100
AcDbLayerTableRecord
  2
0
 70
     0
 62
     7
  6
Continuous
370
    -3
390
F
  0
LAYER
  5
73
330
2
100
AcDbSymbolTableRecord
100
AcDbLayerTableRecord
  2
FORMAT
 70
     0
 62
     7
  6
Continuous
370
    -3
390
F
  0
LAYER
  5
74
330
2
100
AcDbSymbolTableRecord
100
AcDbLayerTableRecord
  2
YARDIMCI_GEOMETRI
 70
     0
 62
    -6
  6
Continuous
290
     0
370
    -3
390
F
  0
LAYER
  5
75
330
2
100
AcDbSymbolTableRecord
100
AcDbLayerTableRecord
  2
SAYFA_CERCEVESI
 70
     0
 62
     7
  6
Continuous
370
    25
390
F
  0
LAYER
  5
76
330
2
100
AcDbSymbolTableRecord
100
AcDbLayerTableRecord
  2
ANTET
 70
     0
 62
     7
  6
Continuous
370
    -3
390
F
  0
LAYER
  5
77
330
2
100
AcDbSymbolTableRecord
100
AcDbLayerTableRecord
  2
OLCU
 70
     0
 62
   150
  6
Continuous
370
    -3
390
F
  0
LAYER
  5
78
330
2
100
AcDbSymbolTableRecord
100
AcDbLayerTableRecord
  2
METIN
 70
     0
 62
    96
  6
Continuous
370
    -3
390
F
  0
LAYER
  5
79
330
2
100
AcDbSymbolTableRecord
100
AcDbLayerTableRecord
  2
BALON
 70
     0
 62
     5
  6
Continuous
370
    -3
390
F
  0
LAYER
  5
7A
330
2
100
AcDbSymbolTableRecord
100
AcDbLayerTableRecord
  2
VURGU
 70
     0
 62
     7
  6
Continuous
370
    -3
390
F
  0
LAYER
  5
7B
330
2
100
AcDbSymbolTableRecord
100
AcDbLayerTableRecord
  2
SILIK
 70
     0
 62
     7
  6
Continuous
370
    -3
390
F
  0
LAYER
  5
7C
330
2
100
AcDbSymbolTableRecord
100
AcDbLayerTableRecord
  2
MODEL
 70
     0
 62
     7
  6
Continuous
370
    -3
390
F
  0
LAYER
  5
7D
330
2
100
AcDbSymbolTableRecord
100
AcDbLayerTableRecord
  2
DETAYLANDıRMA
 70
     0
 62
   190
  6
Continuous
370
    -3
390
F
  0
LAYER
  5
7E
330
2
100
AcDbSymbolTableRecord
100
AcDbLayerTableRecord
  2
TOLERANS
 70
     0
 62
   230
  6
Continuous
370
    -3
390
F
  0
LAYER
  5
7F
330
2
100
AcDbSymbolTableRecord
100
AcDbLayerTableRecord
  2
MERKEZ_CIZGILERI
 70
     0
 62
    30
  6
Continuous
370
    -3
390
F
  0
LAYER
  5
80
330
2
100
AcDbSymbolTableRecord
100
AcDbLayerTableRecord
  2
KESIT-DETAY_CIZGILERI
 70
     0
 62
     7
  6
Continuous
370
    -3
390
F
  0
LAYER
  5
81
330
2
100
AcDbSymbolTableRecord
100
AcDbLayerTableRecord
  2
\U+041E\U+0421\U+0415\U+0412\U+042B\U+0415
 70
     0
 62
     7
  6
Continuous
370
    -3
390
F
  0
LAYER
  5
82
330
2
100
AcDbSymbolTableRecord
100
AcDbLayerTableRecord
  2
\U+0412\U+041E\U+0414\U+042F\U+041D\U+042B\U+0415_\U+0417\U+041D\U+0410\U+041A\U+0418
 70
     0
 62
    11
  6
Continuous
370
    -3
390
F
  0
ENDTAB
  0
TABLE
  2
STYLE
  5
3
330
0
100
AcDbSymbolTable
 70
     1
  0
STYLE
  5
11
330
3
100
AcDbSymbolTableRecord
100
AcDbTextStyleTableRecord
  2
Standard
 70
     0
 40
0.0
 41
1.0
 50
0.0
 71
     0
 42
3.5
  3
txt
  4

  0
ENDTAB
  0
TABLE
  2
VIEW
  5
6
330
0
100
AcDbSymbolTable
 70
     0
  0
ENDTAB
  0
TABLE
  2
UCS
  5
7
330
0
100
AcDbSymbolTable
 70
     0
  0
ENDTAB
  0
TABLE
  2
APPID
  5
9
330
0
100
AcDbSymbolTable
 70
     1
  0
APPID
  5
12
330
9
100
AcDbSymbolTableRecord
100
AcDbRegAppTableRecord
  2
ACAD
 70
     0
  0
ENDTAB
  0
TABLE
  2
DIMSTYLE
  5
A
330
0
100
AcDbSymbolTable
 70
     1
100
AcDbDimStyleTable
  0
DIMSTYLE
105
27
330
A
100
AcDbSymbolTableRecord
100
AcDbDimStyleTableRecord
  2
ISO-25
 70
     0
 41
2.5
 42
0.625
 43
3.75
 44
1.25
 73
     0
 74
     0
 77
     1
 78
     8
140
2.5
141
2.5
143
0.0393700787
147
0.625
171
     3
172
     1
178
     0
271
     2
272
     2
274
     3
278
    44
283
     0
284
     8
340
11
  0
ENDTAB
  0
TABLE
  2
BLOCK_RECORD
  5
1
330
0
100
AcDbSymbolTable
 70
     1
  0
BLOCK_RECORD
  5
1F
330
1
100
AcDbSymbolTableRecord
100
AcDbBlockTableRecord
  2
*Model_Space
340
22
  0
BLOCK_RECORD
  5
1B
330
1
100
AcDbSymbolTableRecord
100
AcDbBlockTableRecord
  2
*Paper_Space
340
1E
  0
BLOCK_RECORD
  5
23
330
1
100
AcDbSymbolTableRecord
100
AcDbBlockTableRecord
  2
*Paper_Space0
340
26
  0
ENDTAB
  0
ENDSEC
  0
SECTION
  2
BLOCKS
  0
BLOCK
  5
20
330
1F
100
AcDbEntity
  8
0
100
AcDbBlockBegin
  2
*Model_Space
 70
     0
 10
0.0
 20
0.0
 30
0.0
  3
*Model_Space
  1

  0
ENDBLK
  5
21
330
1F
100
AcDbEntity
  8
0
100
AcDbBlockEnd
  0
BLOCK
  5
1C
330
1B
100
AcDbEntity
 67
     1
  8
0
100
AcDbBlockBegin
  2
*Paper_Space
 70
     0
 10
0.0
 20
0.0
 30
0.0
  3
*Paper_Space
  1

  0
ENDBLK
  5
1D
330
1B
100
AcDbEntity
 67
     1
  8
0
100
AcDbBlockEnd
  0
BLOCK
  5
24
330
23
100
AcDbEntity
  8
0
100
AcDbBlockBegin
  2
*Paper_Space0
 70
     0
 10
0.0
 20
0.0
 30
0.0
  3
*Paper_Space0
  1

  0
ENDBLK
  5
25
330
23
100
AcDbEntity
  8
0
100
AcDbBlockEnd
  0
ENDSEC
  0
SECTION
  2
ENTITIES
  0
CIRCLE
  5
83
330
1F
100
AcDbEntity
  8
0
  6
Continuous
 62
     7
370
    25
100
AcDbCircle
 10
135.9944086538
 20
118.27271875
 30
0.0
 40
314.9999999999999
  0
CIRCLE
  5
84
330
1F
100
AcDbEntity
  8
0
  6
Continuous
 62
     7
370
    25
100
AcDbCircle
 10
135.9944086538
 20
118.27271875
 30
0.0
 40
277.6
  0
CIRCLE
  5
85
330
1F
100
AcDbEntity
  8
0
  6
Continuous
 62
     7
370
    25
100
AcDbCircle
 10
135.9944086538
 20
118.27271875
 30
0.0
 40
322.5
  0
CIRCLE
  5
86
330
1F
100
AcDbEntity
  8
0
  6
Continuous
 62
     7
370
    25
100
AcDbCircle
 10
135.9944086538
 20
118.27271875
 30
0.0
 40
345.0
  0
LINE
  5
87
330
1F
100
AcDbEntity
  8
0
  6
Continuous
 62
     7
370
    25
100
AcDbLine
 10
480.9944086538
 20
786.2602966289
 30
0.0
 11
480.9944086538
 21
836.2602966289
 31
0.0
  0
LINE
  5
88
330
1F
100
AcDbEntity
  8
0
  6
Continuous
 62
     7
370
    25
100
AcDbLine
 10
-209.0055913462
 20
836.2602966289
 30
0.0
 11
-209.0055913462
 21
786.2602966289
 31
0.0
  0
LINE
  5
89
330
1F
100
AcDbEntity
  8
0
  6
Continuous
 62
     7
370
    25
100
AcDbLine
 10
458.4944086538
 20
836.2602966289
 30
0.0
 11
450.9944086538
 21
915.2602966289
 31
0.0
  0
LINE
  5
8A
330
1F
100
AcDbEntity
  8
0
  6
Continuous
 62
     7
370
    25
100
AcDbLine
 10
-179.0055913462
 20
915.2602966289
 30
0.0
 11
-186.5055913462
 21
836.2602966289
 31
0.0
  0
LINE
  5
8B
330
1F
100
AcDbEntity
  8
0
  6
Continuous
 62
     7
370
    25
100
AcDbLine
 10
450.9944086538
 20
915.2602966289
 30
0.0
 11
450.9944086538
 21
1170.2602966289
 31
0.0
  0
LINE
  5
8C
330
1F
100
AcDbEntity
  8
0
  6
Continuous
 62
     7
370
    25
100
AcDbLine
 10
-179.0055913462
 20
1170.2602966289
 30
0.0
 11
-179.0055913462
 21
915.2602966289
 31
0.0
  0
LINE
  5
8D
330
1F
100
AcDbEntity
  8
0
  6
Continuous
 62
     7
370
    25
100
AcDbLine
 10
480.9944086538
 20
786.2602966289
 30
0.0
 11
-209.0055913462
 21
786.2602966289
 31
0.0
  0
LINE
  5
8E
330
1F
100
AcDbEntity
  8
0
  6
Continuous
 62
     7
370
    25
100
AcDbLine
 10
480.9944086538
 20
836.2602966289
 30
0.0
 11
-209.0055913462
 21
836.2602966289
 31
0.0
  0
LINE
  5
8F
330
1F
100
AcDbEntity
  8
0
  6
Continuous
 62
     7
370
    25
100
AcDbLine
 10
450.9944086538
 20
915.2602966289
 30
0.0
 11
-179.0055913462
 21
915.2602966289
 31
0.0
  0
LINE
  5
90
330
1F
100
AcDbEntity
  8
0
  6
Continuous
 62
     7
370
    25
100
AcDbLine
 10
450.9944086538
 20
1170.2602966289
 30
0.0
 11
-179.0055913462
 21
1170.2602966289
 31
0.0
  0
LINE
  5
91
330
1F
100
AcDbEntity
  8
0
  6
Continuous
 62
     7
370
    25
100
AcDbLine
 10
-582.1013056502
 20
463.27271875
 30
0.0
 11
-632.1013056502
 21
463.27271875
 31
0.0
  0
LINE
  5
92
330
1F
100
AcDbEntity
  8
0
  6
Continuous
 62
     7
370
    25
100
AcDbLine
 10
-632.1013056502
 20
-226.72728125
 30
0.0
 11
-582.1013056502
 21
-226.72728125
 31
0.0
  0
LINE
  5
93
330
1F
100
AcDbEntity
  8
0
  6
Continuous
 62
     7
370
    25
100
AcDbLine
 10
-632.1013056502
 20
440.77271875
 30
0.0
 11
-711.1013056502
 21
433.27271875
 31
0.0
  0
LINE
  5
94
330
1F
100
AcDbEntity
  8
0
  6
Continuous
 62
     7
370
    25
100
AcDbLine
 10
-711.1013056502
 20
-196.72728125
 30
0.0
 11
-632.1013056502
 21
-204.22728125
 31
0.0
  0
LINE
  5
95
330
1F
100
AcDbEntity
  8
0
  6
Continuous
 62
     7
370
    25
100
AcDbLine
 10
-711.1013056502
 20
433.27271875
 30
0.0
 11
-966.1013056502
 21
433.27271875
 31
0.0
  0
LINE
  5
96
330
1F
100
AcDbEntity
  8
0
  6
Continuous
 62
     7
370
    25
100
AcDbLine
 10
-966.1013056502
 20
-196.72728125
 30
0.0
 11
-711.1013056502
 21
-196.72728125
 31
0.0
  0
LINE
  5
97
330
1F
100
AcDbEntity
  8
0
  6
Continuous
 62
     7
370
    25
100
AcDbLine
 10
-582.1013056502
 20
463.27271875
 30
0.0
 11
-582.1013056502
 21
-226.72728125
 31
0.0
  0
LINE
  5
98
330
1F
100
AcDbEntity
  8
0
  6
Continuous
 62
     7
370
    25
100
AcDbLine
 10
-632.1013056502
 20
463.27271875
 30
0.0
 11
-632.1013056502
 21
-226.72728125
 31
0.0
  0
LINE
  5
99
330
1F
100
AcDbEntity
  8
0
  6
Continuous
 62
     7
370
    25
100
AcDbLine
 10
-711.1013056502
 20
433.27271875
 30
0.0
 11
-711.1013056502
 21
-196.72728125
 31
0.0
  0
LINE
  5
9A
330
1F
100
AcDbEntity
  8
0
  6
Continuous
 62
     7
370
    25
100
AcDbLine
 10
-966.1013056502
 20
433.27271875
 30
0.0
 11
-966.1013056502
 21
-196.72728125
 31
0.0
  0
LINE
  5
9B
330
1F
100
AcDbEntity
  8
0
  6
Continuous
 62
     7
370
    25
100
AcDbLine
 10
-209.0055913462
 20
-587.0999226208
 30
0.0
 11
-209.0055913462
 21
-637.0999226208
 31
0.0
  0
LINE
  5
9C
330
1F
100
AcDbEntity
  8
0
  6
Continuous
 62
     7
370
    25
100
AcDbLine
 10
480.9944086538
 20
-637.0999226208
 30
0.0
 11
480.9944086538
 21
-587.0999226208
 31
0.0
  0
LINE
  5
9D
330
1F
100
AcDbEntity
  8
0
  6
Continuous
 62
     7
370
    25
100
AcDbLine
 10
-186.5055913462
 20
-637.0999226208
 30
0.0
 11
-179.0055913462
 21
-716.0999226208
 31
0.0
  0
LINE
  5
9E
330
1F
100
AcDbEntity
  8
0
  6
Continuous
 62
     7
370
    25
100
AcDbLine
 10
450.9944086538
 20
-716.0999226208
 30
0.0
 11
458.4944086538
 21
-637.0999226208
 31
0.0
  0
LINE
  5
9F
330
1F
100
AcDbEntity
  8
0
  6
Continuous
 62
     7
370
    25
100
AcDbLine
 10
-179.0055913462
 20
-716.0999226208
 30
0.0
 11
-179.0055913462
 21
-971.0999226208
 31
0.0
  0
LINE
  5
A0
330
1F
100
AcDbEntity
  8
0
  6
Continuous
 62
     7
370
    25
100
AcDbLine
 10
450.9944086538
 20
-971.0999226208
 30
0.0
 11
450.9944086538
 21
-716.0999226208
 31
0.0
  0
LINE
  5
A1
330
1F
100
AcDbEntity
  8
0
  6
Continuous
 62
     7
370
    25
100
AcDbLine
 10
-209.0055913462
 20
-587.0999226208
 30
0.0
 11
480.9944086538
 21
-587.0999226208
 31
0.0
  0
LINE
  5
A2
330
1F
100
AcDbEntity
  8
0
  6
Continuous
 62
     7
370
    25
100
AcDbLine
 10
-209.0055913462
 20
-637.0999226208
 30
0.0
 11
480.9944086538
 21
-637.0999226208
 31
0.0
  0
LINE
  5
A3
330
1F
100
AcDbEntity
  8
0
  6
Continuous
 62
     7
370
    25
100
AcDbLine
 10
-179.0055913462
 20
-716.0999226208
 30
0.0
 11
450.9944086538
 21
-716.0999226208
 31
0.0
  0
LINE
  5
A4
330
1F
100
AcDbEntity
  8
0
  6
Continuous
 62
     7
370
    25
100
AcDbLine
 10
-179.0055913462
 20
-971.0999226208
 30
0.0
 11
450.9944086538
 21
-971.0999226208
 31
0.0
  0
LINE
  5
A5
330
1F
100
AcDbEntity
  8
0
  6
Continuous
 62
     7
370
    25
100
AcDbLine
 10
843.6673160587
 20
-226.72728125
 30
0.0
 11
893.6673160587
 21
-226.72728125
 31
0.0
  0
LINE
  5
A6
330
1F
100
AcDbEntity
  8
0
  6
Continuous
 62
     7
370
    25
100
AcDbLine
 10
893.6673160587
 20
463.27271875
 30
0.0
 11
843.6673160587
 21
463.27271875
 31
0.0
  0
LINE
  5
A7
330
1F
100
AcDbEntity
  8
0
  6
Continuous
 62
     7
370
    25
100
AcDbLine
 10
893.6673160587
 20
-204.22728125
 30
0.0
 11
972.6673160587
 21
-196.72728125
 31
0.0
  0
LINE
  5
A8
330
1F
100
AcDbEntity
  8
0
  6
Continuous
 62
     7
370
    25
100
AcDbLine
 10
972.6673160587
 20
433.27271875
 30
0.0
 11
893.6673160587
 21
440.77271875
 31
0.0
  0
LINE
  5
A9
330
1F
100
AcDbEntity
  8
0
  6
Continuous
 62
     7
370
    25
100
AcDbLine
 10
972.6673160587
 20
-196.72728125
 30
0.0
 11
1227.6673160587
 21
-196.72728125
 31
0.0
  0
LINE
  5
AA
330
1F
100
AcDbEntity
  8
0
  6
Continuous
 62
     7
370
    25
100
AcDbLine
 10
1227.6673160587
 20
433.27271875
 30
0.0
 11
972.6673160587
 21
433.27271875
 31
0.0
  0
LINE
  5
AB
330
1F
100
AcDbEntity
  8
0
  6
Continuous
 62
     7
370
    25
100
AcDbLine
 10
843.6673160587
 20
118.27271875
 30
0.0
 11
843.6673160587
 21
463.27271875
 31
0.0
  0
LINE
  5
AC
330
1F
100
AcDbEntity
  8
0
  6
Continuous
 62
     7
370
    25
100
AcDbLine
 10
843.6673160587
 20
-226.72728125
 30
0.0
 11
843.6673160587
 21
118.27271875
 31
0.0
  0
LINE
  5
AD
330
1F
100
AcDbEntity
  8
0
  6
Continuous
 62
     7
370
    25
100
AcDbLine
 10
893.6673160587
 20
118.27271875
 30
0.0
 11
893.6673160587
 21
463.27271875
 31
0.0
  0
LINE
  5
AE
330
1F
100
AcDbEntity
  8
0
  6
Continuous
 62
     7
370
    25
100
AcDbLine
 10
893.6673160587
 20
-226.72728125
 30
0.0
 11
893.6673160587
 21
118.27271875
 31
0.0
  0
LINE
  5
AF
330
1F
100
AcDbEntity
  8
0
  6
Continuous
 62
     7
370
    25
100
AcDbLine
 10
972.6673160587
 20
118.27271875
 30
0.0
 11
972.6673160587
 21
433.27271875
 31
0.0
  0
LINE
  5
B0
330
1F
100
AcDbEntity
  8
0
  6
Continuous
 62
     7
370
    25
100
AcDbLine
 10
972.6673160587
 20
-196.72728125
 30
0.0
 11
972.6673160587
 21
118.27271875
 31
0.0
  0
LINE
  5
B1
330
1F
100
AcDbEntity
  8
0
  6
Continuous
 62
     7
370
    25
100
AcDbLine
 10
1227.6673160587
 20
118.27271875
 30
0.0
 11
1227.6673160587
 21
433.27271875
 31
0.0
  0
LINE
  5
B2
330
1F
100
AcDbEntity
  8
0
  6
Continuous
 62
     7
370
    25
100
AcDbLine
 10
1227.6673160587
 20
-196.72728125
 30
0.0
 11
1227.6673160587
 21
118.27271875
 31
0.0
  0
LINE
  5
B3
330
1F
100
AcDbEntity
  8
0
  6
Continuous
 62
     7
370
    25
100
AcDbLine
 10
1241.8428375639
 20
-543.0132583401
 30
0.0
 11
1061.5306083614
 21
-438.9212240827
 31
0.0
  0
LINE
  5
B4
330
1F
100
AcDbEntity
  8
0
  6
Continuous
 62
     7
370
    25
100
AcDbLine
 10
746.556207581
 20
-984.5320073825
 30
0.0
 11
926.8684367836
 21
-1088.6240416399
 31
0.0
  0
LINE
  5
B5
330
1F
100
AcDbEntity
  8
0
  6
Continuous
 62
     7
370
    25
100
AcDbLine
 10
1290.2636581165
 20
-563.1461328579
 30
0.0
 11
1236.5494887845
 21
-539.9574731339
 31
0.0
  0
LINE
  5
B6
330
1F
100
AcDbEntity
  8
0
  6
Continuous
 62
     7
370
    25
100
AcDbLine
 10
921.5750880041
 20
-1085.5682564337
 30
0.0
 11
968.517418023
 21
-1120.4873569266
 31
0.0
  0
LINE
  5
B7
330
1F
100
AcDbEntity
  8
0
  6
Continuous
 62
     7
370
    25
100
AcDbLine
 10
1348.0583933265
 20
-569.6901156812
 30
0.0
 11
1312.7030542672
 21
-549.2799128856
 31
0.0
  0
LINE
  5
B8
330
1F
100
AcDbEntity
  8
0
  6
Continuous
 62
     7
370
    25
100
AcDbLine
 10
967.7310915078
 20
-1146.8536279283
 30
0.0
 11
1003.0864305671
 21
-1167.2638307239
 31
0.0
  0
LWPOLYLINE
  5
B9
330
1F
100
AcDbEntity
  8
0
  6
Continuous
 62
     7
370
    25
100
AcDbPolyline
 90
      189
 70
   128
 43
0.0
 10
681.3047718974
 20
-840.3108933447
 10
681.4291572305
 20
-831.644409097
 10
681.8021743071
 20
-822.8439919589
 10
682.4234065147
 20
-813.9194708747
 10
683.2921600162
 20
-804.8808133968
 10
684.4074645245
 20
-795.7381145537
 10
685.7680743868
 20
-786.5015855744
 10
687.3724699752
 20
-777.1815424848
 10
689.2188593844
 20
-767.7883945848
 10
691.3051804327
 20
-758.3326328236
 10
693.6291029654
 20
-748.8248180817
 10
696.1880314573
 20
-739.2755693763
 10
698.9791079114
 20
-729.6955520011
 10
701.9992150511
 20
-720.0954656144
 10
705.2449798016
 20
-710.4860322891
 10
708.7127770574
 20
-700.8779845374
 10
712.3987337311
 20
-691.2820533239
 10
716.2987330787
 20
-681.7089560808
 10
720.4084192981
 20
-672.1693847374
 10
724.7232023937
 20
-662.6739937791
 10
729.2382633027
 20
-653.2333883473
 10
733.9485592775
 20
-643.8581123948
 10
738.8488295179
 20
-634.5586369101
 10
743.9336010467
 20
-625.3453482218
 10
749.1971948221
 20
-616.2285363991
 10
754.6337320809
 20
-607.2183837588
 10
760.2371409037
 20
-598.3249534929
 10
766.0011629973
 20
-589.5581784295
 10
771.9193606836
 20
-580.9278499389
 10
777.9851240901
 20
-572.4436069981
 10
784.1916785322
 20
-564.1149254249
 10
790.5320920798
 20
-555.9511072952
 10
796.999283299
 20
-547.9612705531
 10
803.5860291615
 20
-540.154338828
 10
810.2849731119
 20
-532.5390314675
 10
817.0886332834
 20
-525.1238537993
 10
823.989410855
 20
-517.9170876316
 10
830.9795985377
 20
-510.9267820039
 10
838.0513891828
 20
-504.1607441963
 10
845.1968845014
 20
-497.6265310108
 10
852.4081038862
 20
-491.3314403306
 10
859.6769933241
 20
-485.2825029697
 10
866.9954343923
 20
-479.48647482
 10
874.3552533248
 20
-473.9498293063
 10
881.748230142
 20
-468.6787501558
 10
889.166107831
 20
-463.6791244923
 10
896.6006015681
 20
-458.9565362601
 10
904.0434079712
 20
-454.5162599886
 10
911.4862143743
 20
-450.3632549002
 10
918.9207081113
 20
-446.5021593724
 10
926.3385858004
 20
-442.9372857567
 10
933.7315626176
 20
-439.6726155626
 10
941.0913815501
 20
-436.7117950105
 10
948.4098226182
 20
-434.0581309596
 10
955.6787120562
 20
-431.7145872144
 10
962.889931441
 20
-429.6837812147
 10
970.0354267596
 20
-427.9679811117
 10
977.1072174047
 20
-426.5691032356
 10
984.0974050873
 20
-425.4887099547
 10
990.9981826589
 20
-424.7280079305
 10
997.8018428305
 20
-424.2878467702
 10
1004.5007867808
 20
-424.1687180777
 10
1011.0875326434
 20
-424.3707549046
 10
1017.5547238626
 20
-424.8937316016
 10
1023.8951374102
 20
-425.7370640703
 10
1030.1016918523
 20
-426.8998104158
 10
1036.1674552588
 20
-428.3806719987
 10
1042.0856529451
 20
-430.1779948853
 10
1047.8496750386
 20
-432.289771695
 10
1053.4530838615
 20
-434.7136438424
 10
1058.8896211202
 20
-437.4469041712
 10
1064.1532148957
 20
-440.486499978
 10
1069.2379864244
 20
-443.8290364216
 10
1074.1382566649
 20
-447.470780315
 10
1078.8485526397
 20
-451.4076642944
 10
1083.3636135486
 20
-455.6352913621
 10
1087.6783966442
 20
-460.1489397976
 10
1091.7880828637
 20
-464.9435684309
 10
1095.6880822113
 20
-470.013822273
 10
1099.3740388849
 20
-475.3540384965
 10
1102.8418361408
 20
-480.9582527607
 10
1106.0876008913
 20
-486.8202058724
 10
1109.107708031
 20
-492.9333507772
 10
1111.8987844851
 20
-499.2908598715
 10
1114.457712977
 20
-505.8856326279
 10
1116.7816355097
 20
-512.7103035259
 10
1118.867956558
 20
-519.7572502779
 10
1120.7143459671
 20
-527.0186023425
 10
1122.3187415556
 20
-534.4862497152
 10
1123.6793514178
 20
-542.1518519855
 10
1124.7946559262
 20
-550.0068476529
 10
1125.6634094276
 20
-558.0424636883
 10
1126.2846416353
 20
-566.2497253329
 10
1126.6576587119
 20
-574.6194661215
 10
1126.7820440449
 20
-583.1423381205
 10
1126.6576587119
 20
-591.8088223682
 10
1126.2846416353
 20
-600.6092395062
 10
1125.6634094276
 20
-609.5337605905
 10
1124.7946559262
 20
-618.5724180683
 10
1123.6793514178
 20
-627.7151169115
 10
1122.3187415556
 20
-636.9516458907
 10
1120.7143459671
 20
-646.2716889804
 10
1118.867956558
 20
-655.6648368804
 10
1116.7816355097
 20
-665.1205986416
 10
1114.457712977
 20
-674.6284133835
 10
1111.8987844851
 20
-684.1776620889
 10
1109.107708031
 20
-693.7576794641
 10
1106.0876008913
 20
-703.3577658508
 10
1102.8418361408
 20
-712.9671991761
 10
1099.3740388849
 20
-722.5752469278
 10
1095.6880822113
 20
-732.1711781413
 10
1091.7880828637
 20
-741.7442753844
 10
1087.6783966442
 20
-751.2838467277
 10
1083.3636135486
 20
-760.7792376861
 10
1078.8485526397
 20
-770.2198431179
 10
1074.1382566649
 20
-779.5951190704
 10
1069.2379864244
 20
-788.8945945551
 10
1064.1532148957
 20
-798.1078832434
 10
1058.8896211202
 20
-807.2246950661
 10
1053.4530838615
 20
-816.2348477064
 10
1047.8496750386
 20
-825.1282779723
 10
1042.0856529451
 20
-833.8950530357
 10
1036.1674552588
 20
-842.5253815262
 10
1030.1016918523
 20
-851.0096244671
 10
1023.8951374102
 20
-859.3383060403
 10
1017.5547238626
 20
-867.50212417
 10
1011.0875326434
 20
-875.4919609121
 10
1004.5007867808
 20
-883.2988926372
 10
997.8018428305
 20
-890.9141999977
 10
990.9981826589
 20
-898.3293776659
 10
984.0974050873
 20
-905.5361438335
 10
977.1072174047
 20
-912.5264494613
 10
970.0354267596
 20
-919.2924872689
 10
962.889931441
 20
-925.8267004544
 10
955.6787120562
 20
-932.1217911346
 10
948.4098226182
 20
-938.1707284955
 10
941.0913815501
 20
-943.9667566452
 10
933.7315626176
 20
-949.5034021589
 10
926.3385858004
 20
-954.7744813093
 10
918.9207081113
 20
-959.7741069729
 10
911.4862143743
 20
-964.496695205
 10
904.0434079712
 20
-968.9369714766
 10
896.6006015681
 20
-973.089976565
 10
889.166107831
 20
-976.9510720928
 10
881.748230142
 20
-980.5159457085
 10
874.3552533248
 20
-983.7806159026
 10
866.9954343923
 20
-986.7414364547
 10
859.6769933241
 20
-989.3951005056
 10
852.4081038862
 20
-991.7386442507
 10
845.1968845014
 20
-993.7694502505
 10
838.0513891828
 20
-995.4852503535
 10
830.9795985377
 20
-996.8841282295
 10
823.989410855
 20
-997.9645215105
 10
817.0886332834
 20
-998.7252235347
 10
810.2849731119
 20
-999.165384695
 10
803.5860291615
 20
-999.2845133875
 10
796.999283299
 20
-999.0824765605
 10
790.5320920798
 20
-998.5594998636
 10
784.1916785322
 20
-997.7161673949
 10
777.9851240901
 20
-996.5534210494
 10
771.9193606836
 20
-995.0725594665
 10
766.0011629973
 20
-993.2752365799
 10
760.2371409037
 20
-991.1634597702
 10
754.6337320809
 20
-988.7395876228
 10
749.1971948221
 20
-986.006327294
 10
743.9336010467
 20
-982.9667314872
 10
738.8488295179
 20
-979.6241950436
 10
733.9485592775
 20
-975.9824511502
 10
729.2382633027
 20
-972.0455671708
 10
724.7232023937
 20
-967.8179401031
 10
720.4084192981
 20
-963.3042916676
 10
716.2987330787
 20
-958.5096630342
 10
712.3987337311
 20
-953.4394091922
 10
708.7127770574
 20
-948.0991929687
 10
705.2449798016
 20
-942.4949787045
 10
701.9992150511
 20
-936.6330255928
 10
698.9791079114
 20
-930.519880688
 10
696.1880314573
 20
-924.1623715937
 10
693.6291029654
 20
-917.5675988372
 10
691.3051804327
 20
-910.7429279393
 10
689.2188593844
 20
-903.6959811873
 10
687.3724699752
 20
-896.4346291226
 10
685.7680743868
 20
-888.96698175
 10
684.4074645245
 20
-881.3013794797
 10
683.2921600162
 20
-873.4463838123
 10
682.4234065147
 20
-865.4107677769
 10
681.8021743071
 20
-857.2035061323
 10
681.4291572305
 20
-848.8337653437
 10
681.3047718974
 20
-840.3108933447
  0
LWPOLYLINE
  5
BA
330
1F
100
AcDbEntity
  8
0
  6
Continuous
 62
     7
370
    25
100
AcDbPolyline
 90
      177
 70
   128
 43
0.0
 10
707.7505655138
 20
-825.0440616536
 10
707.8756382767
 20
-816.8814156476
 10
708.2506971792
 20
-808.5847657604
 10
708.8752642654
 20
-800.1646848171
 10
709.7485436191
 20
-791.6319029366
 10
710.8694223779
 20
-782.9972938584
 10
712.2364721514
 20
-774.2718610851
 10
713.8479508415
 20
-765.4667238606
 10
715.7018048625
 20
-756.593103
 10
717.795671758
 20
-747.6623065902
 10
720.1268832113
 20
-738.68571558
 10
722.6924684463
 20
-729.6747692764
 10
725.4891580129
 20
-720.6409507668
 10
728.5133879532
 20
-711.5957722862
 10
731.7613043439
 20
-702.5507605457
 10
735.228768207
 20
-693.5174420442
 10
738.9113607844
 20
-684.5073283792
 10
742.8043891692
 20
-675.5319015774
 10
746.9028922858
 20
-666.6025994619
 10
751.201647212
 20
-657.7308010773
 10
755.6951758352
 20
-648.9278121882
 10
760.3777518331
 20
-640.2048508718
 10
765.2434079712
 20
-631.5730332226
 10
770.2859437068
 20
-623.0433591858
 10
775.4989330913
 20
-614.6266985405
 10
780.8757329585
 20
-606.3337770471
 10
786.4094913904
 20
-598.1751627792
 10
792.0931564494
 20
-590.1612526562
 10
797.9194851643
 20
-582.3022591939
 10
803.8810527608
 20
-574.6081974902
 10
809.9702621231
 20
-567.0888724627
 10
816.1793534751
 20
-559.7538663532
 10
822.5004142696
 20
-552.6125265173
 10
828.9253892709
 20
-545.6739535118
 10
835.4460908206
 20
-538.9469894983
 10
842.0542092714
 20
-532.4402069744
 10
848.741323576
 20
-526.16189785
 10
855.4989120192
 20
-520.1200628799
 10
862.3183630771
 20
-514.3224014688
 10
869.190986391
 20
-508.7763018586
 10
876.1080238427
 20
-503.4888317143
 10
883.0606607143
 20
-498.4667291165
 10
890.0400369224
 20
-493.7163939749
 10
897.037258308
 20
-489.2438798729
 10
904.0434079712
 20
-485.0548863531
 10
911.0495576344
 20
-481.1547516538
 10
918.0467790199
 20
-477.5484459064
 10
925.026155228
 20
-474.2405648021
 10
931.9787920997
 20
-471.2353237348
 10
938.8958295513
 20
-468.5365524294
 10
945.7684528653
 20
-466.1476900616
 10
952.5879039232
 20
-464.071780875
 10
959.3454923664
 20
-462.3114703019
 10
966.032606671
 20
-460.8690015916
 10
972.6407251217
 20
-459.7462129522
 10
979.1614266715
 20
-458.9445352081
 10
985.5864016728
 20
-458.4649899761
 10
991.9074624672
 20
-458.3081883641
 10
998.1165538193
 20
-458.474330192
 10
1004.2057631815
 20
-458.9632037373
 10
1010.167330778
 20
-459.7741860044
 10
1015.9936594929
 20
-460.9062435194
 10
1021.6773245519
 20
-462.3579336461
 10
1027.2110829839
 20
-464.1274064252
 10
1032.587882851
 20
-466.2124069313
 10
1037.8008722355
 20
-468.6102781468
 10
1042.8434079712
 20
-471.3179643476
 10
1047.7090641092
 20
-474.3320149974
 10
1052.3916401071
 20
-477.6485891448
 10
1056.8851687304
 20
-481.2634603178
 10
1061.1839236566
 20
-485.17202191
 10
1065.2824267731
 20
-489.3692930512
 10
1069.1754551579
 20
-493.8499249544
 10
1072.8580477354
 20
-498.6082077321
 10
1076.3255115985
 20
-503.6380776731
 10
1079.5734279892
 20
-508.9331249691
 10
1082.5976579295
 20
-514.4866018837
 10
1085.394347496
 20
-520.2914313507
 10
1087.9599327311
 20
-526.3402159933
 10
1090.2911441844
 20
-532.6252475509
 10
1092.3850110799
 20
-539.1385167017
 10
1094.2388651009
 20
-545.8717232697
 10
1095.850343791
 20
-552.816286802
 10
1097.2173935645
 20
-559.9633575032
 10
1098.3382723233
 20
-567.303827513
 10
1099.211551677
 20
-574.8283425133
 10
1099.8361187632
 20
-582.5273136482
 10
1100.2111776656
 20
-590.3909297439
 10
1100.3362504286
 20
-598.4091698116
 10
1100.2111776656
 20
-606.5718158176
 10
1099.8361187632
 20
-614.8684657048
 10
1099.211551677
 20
-623.2885466481
 10
1098.3382723233
 20
-631.8213285286
 10
1097.2173935645
 20
-640.4559376068
 10
1095.850343791
 20
-649.1813703801
 10
1094.2388651009
 20
-657.9865076045
 10
1092.3850110799
 20
-666.8601284652
 10
1090.2911441844
 20
-675.790924875
 10
1087.9599327311
 20
-684.7675158852
 10
1085.394347496
 20
-693.7784621888
 10
1082.5976579295
 20
-702.8122806983
 10
1079.5734279892
 20
-711.857459179
 10
1076.3255115985
 20
-720.9024709195
 10
1072.8580477354
 20
-729.935789421
 10
1069.1754551579
 20
-738.945903086
 10
1065.2824267731
 20
-747.9213298878
 10
1061.1839236566
 20
-756.8506320033
 10
1056.8851687304
 20
-765.7224303879
 10
1052.3916401071
 20
-774.525419277
 10
1047.7090641092
 20
-783.2483805933
 10
1042.8434079712
 20
-791.8801982426
 10
1037.8008722355
 20
-800.4098722794
 10
1032.587882851
 20
-808.8265329247
 10
1027.2110829839
 20
-817.1194544181
 10
1021.6773245519
 20
-825.278068686
 10
1015.9936594929
 20
-833.291978809
 10
1010.167330778
 20
-841.1509722713
 10
1004.2057631815
 20
-848.845033975
 10
998.1165538193
 20
-856.3643590025
 10
991.9074624672
 20
-863.6993651119
 10
985.5864016728
 20
-870.8407049479
 10
979.1614266715
 20
-877.7792779533
 10
972.6407251217
 20
-884.5062419669
 10
966.032606671
 20
-891.0130244907
 10
959.3454923664
 20
-897.2913336152
 10
952.5879039232
 20
-903.3331685852
 10
945.7684528653
 20
-909.1308299964
 10
938.8958295513
 20
-914.6769296065
 10
931.9787920997
 20
-919.9643997509
 10
925.026155228
 20
-924.9865023487
 10
918.0467790199
 20
-929.7368374903
 10
911.0495576344
 20
-934.2093515922
 10
904.0434079712
 20
-938.3983451121
 10
897.037258308
 20
-942.2984798114
 10
890.0400369224
 20
-945.9047855587
 10
883.0606607143
 20
-949.2126666631
 10
876.1080238427
 20
-952.2179077304
 10
869.190986391
 20
-954.9166790358
 10
862.3183630771
 20
-957.3055414036
 10
855.4989120192
 20
-959.3814505902
 10
848.741323576
 20
-961.1417611633
 10
842.0542092714
 20
-962.5842298736
 10
835.4460908206
 20
-963.707018513
 10
828.9253892709
 20
-964.5086962571
 10
822.5004142696
 20
-964.9882414891
 10
816.1793534751
 20
-965.1450431011
 10
809.9702621231
 20
-964.9789012732
 10
803.8810527608
 20
-964.4900277279
 10
797.9194851643
 20
-963.6790454607
 10
792.0931564494
 20
-962.5469879458
 10
786.4094913904
 20
-961.0952978191
 10
780.8757329585
 20
-959.32582504
 10
775.4989330913
 20
-957.2408245339
 10
770.2859437068
 20
-954.8429533184
 10
765.2434079712
 20
-952.1352671176
 10
760.3777518331
 20
-949.1212164677
 10
755.6951758352
 20
-945.8046423204
 10
751.201647212
 20
-942.1897711474
 10
746.9028922858
 20
-938.2812095552
 10
742.8043891692
 20
-934.083938414
 10
738.9113607844
 20
-929.6033065108
 10
735.228768207
 20
-924.845023733
 10
731.7613043439
 20
-919.8151537921
 10
728.5133879532
 20
-914.520106496
 10
725.4891580129
 20
-908.9666295815
 10
722.6924684463
 20
-903.1618001145
 10
720.1268832113
 20
-897.1130154718
 10
717.795671758
 20
-890.8279839143
 10
715.7018048625
 20
-884.3147147635
 10
713.8479508415
 20
-877.5815081955
 10
712.2364721514
 20
-870.6369446632
 10
710.8694223779
 20
-863.489873962
 10
709.7485436191
 20
-856.1494039521
 10
708.8752642654
 20
-848.6248889519
 10
708.2506971792
 20
-840.925917817
 10
707.8756382767
 20
-833.0623017213
 10
707.7505655138
 20
-825.0440616536
  0
LWPOLYLINE
  5
BB
330
1F
100
AcDbEntity
  8
0
  6
Continuous
 62
     7
370
    25
100
AcDbPolyline
 90
       96
 70
   128
 43
0.0
 10
1241.8428375639
 20
-543.0132583401
 10
1244.4654440982
 20
-544.5785342354
 10
1249.550215627
 20
-547.921070679
 10
1254.4504858674
 20
-551.5628145724
 10
1259.1607818423
 20
-555.4996985518
 10
1263.6758427512
 20
-559.7273256195
 10
1267.9906258468
 20
-564.240974055
 10
1272.1003120662
 20
-569.0356026883
 10
1276.0003114139
 20
-574.1058565304
 10
1279.6862680875
 20
-579.4460727539
 10
1283.1540653433
 20
-585.0502870181
 10
1286.3998300938
 20
-590.9122401298
 10
1289.4199372335
 20
-597.0253850346
 10
1292.2110136876
 20
-603.3828941289
 10
1294.7699421795
 20
-609.9776668853
 10
1297.0938647123
 20
-616.8023377833
 10
1299.1801857606
 20
-623.8492845353
 10
1301.0265751697
 20
-631.1106365999
 10
1302.6309707581
 20
-638.5782839726
 10
1303.9915806204
 20
-646.2438862429
 10
1305.1068851288
 20
-654.0988819103
 10
1305.9756386302
 20
-662.1344979457
 10
1306.5968708379
 20
-670.3417595903
 10
1306.9698879145
 20
-678.7115003789
 10
1307.0942732475
 20
-687.2343723779
 10
1306.9698879145
 20
-695.9008566256
 10
1306.5968708378
 20
-704.7012737636
 10
1305.9756386302
 20
-713.6257948479
 10
1305.1068851288
 20
-722.6644523257
 10
1303.9915806204
 20
-731.8071511689
 10
1302.6309707581
 20
-741.0436801481
 10
1301.0265751697
 20
-750.3637232378
 10
1299.1801857606
 20
-759.7568711378
 10
1297.0938647123
 20
-769.212632899
 10
1294.7699421795
 20
-778.7204476409
 10
1292.2110136876
 20
-788.2696963463
 10
1289.4199372335
 20
-797.8497137215
 10
1286.3998300938
 20
-807.4498001082
 10
1283.1540653433
 20
-817.0592334335
 10
1279.6862680875
 20
-826.6672811852
 10
1276.0003114139
 20
-836.2632123987
 10
1272.1003120662
 20
-845.8363096418
 10
1267.9906258468
 20
-855.3758809851
 10
1263.6758427512
 20
-864.8712719434
 10
1259.1607818422
 20
-874.3118773753
 10
1254.4504858674
 20
-883.6871533278
 10
1249.550215627
 20
-892.9866288125
 10
1244.4654440982
 20
-902.1999175008
 10
1239.2018503228
 20
-911.3167293235
 10
1233.7653130641
 20
-920.3268819638
 10
1228.1619042412
 20
-929.2203122297
 10
1222.3978821476
 20
-937.9870872931
 10
1216.4796844614
 20
-946.6174157836
 10
1210.4139210549
 20
-955.1016587245
 10
1204.2073666127
 20
-963.4303402977
 10
1197.8669530652
 20
-971.5941584274
 10
1191.399761846
 20
-979.5839951695
 10
1184.8130159834
 20
-987.3909268946
 10
1178.1140720331
 20
-995.0062342551
 10
1171.3104118615
 20
-1002.4214119233
 10
1164.4096342899
 20
-1009.6281780909
 10
1157.4194466072
 20
-1016.6184837187
 10
1150.3476559622
 20
-1023.3845215263
 10
1143.2021606435
 20
-1029.9187347118
 10
1135.9909412588
 20
-1036.213825392
 10
1128.7220518208
 20
-1042.2627627529
 10
1121.4036107526
 20
-1048.0587909026
 10
1114.0437918201
 20
-1053.5954364163
 10
1106.650815003
 20
-1058.8665155667
 10
1099.2329373139
 20
-1063.8661412303
 10
1091.7984435769
 20
-1068.5887294624
 10
1084.3556371738
 20
-1073.029005734
 10
1076.9128307706
 20
-1077.1820108224
 10
1069.4783370336
 20
-1081.0431063502
 10
1062.0604593445
 20
-1084.6079799659
 10
1054.6674825274
 20
-1087.87265016
 10
1047.3076635949
 20
-1090.8334707121
 10
1039.9892225267
 20
-1093.487134763
 10
1032.7203330887
 20
-1095.8306785081
 10
1025.509113704
 20
-1097.8614845079
 10
1018.3636183853
 20
-1099.5772846109
 10
1011.2918277403
 20
-1100.9761624869
 10
1004.3016400576
 20
-1102.0565557679
 10
997.400862486
 20
-1102.8172577921
 10
990.5972023144
 20
-1103.2574189524
 10
983.8982583641
 20
-1103.3765476449
 10
977.3115125015
 20
-1103.1745108179
 10
970.8443212823
 20
-1102.651534121
 10
964.5039077348
 20
-1101.8082016523
 10
958.2973532926
 20
-1100.6454553068
 10
952.2315898862
 20
-1099.1645937239
 10
946.3133921999
 20
-1097.3672708373
 10
940.5493701063
 20
-1095.2554940275
 10
934.9459612834
 20
-1092.8316218802
 10
929.5094240247
 20
-1090.0983615514
 10
926.8684367836
 20
-1088.6240416399
  0
LWPOLYLINE
  5
BC
330
1F
100
AcDbEntity
  8
0
  6
Continuous
 62
     7
370
    25
100
AcDbPolyline
 90
       31
 70
   128
 43
0.0
 10
957.8391796445
 20
-898.6641155123
 10
958.2836861128
 20
-896.6326422204
 10
960.3775530082
 20
-887.7018458106
 10
962.7087644616
 20
-878.7252548004
 10
965.2743496966
 20
-869.7143084968
 10
968.0710392631
 20
-860.6804899872
 10
971.0952692035
 20
-851.6353115066
 10
974.3431855942
 20
-842.5902997661
 10
977.8106494573
 20
-833.5569812646
 10
981.4932420347
 20
-824.5468675996
 10
985.3862704195
 20
-815.5714407978
 10
989.4847735361
 20
-806.6421386823
 10
993.7835284623
 20
-797.7703402977
 10
998.2770570855
 20
-788.9673514086
 10
1002.9596330834
 20
-780.2443900922
 10
1007.8252892215
 20
-771.6125724429
 10
1012.8678249571
 20
-763.0828984062
 10
1018.0808143416
 20
-754.6662377609
 10
1023.4576142088
 20
-746.3733162675
 10
1028.9913726407
 20
-738.2147019996
 10
1034.6750376997
 20
-730.2007918766
 10
1040.5013664146
 20
-722.3417984142
 10
1046.4629340111
 20
-714.6477367106
 10
1052.5521433734
 20
-707.1284116831
 10
1058.7612347254
 20
-699.7934055736
 10
1065.0822955199
 20
-692.6520657377
 10
1071.5072705212
 20
-685.7134927322
 10
1078.0279720709
 20
-678.9865287187
 10
1084.6360905216
 20
-672.4797461948
 10
1091.3232048263
 20
-666.2014370704
 10
1092.8295175481
 20
-664.8286551733
  0
LWPOLYLINE
  5
BD
330
1F
100
AcDbEntity
  8
0
  6
Continuous
 62
     7
370
    25
100
AcDbPolyline
 90
      101
 70
   128
 43
0.0
 10
1290.2636581165
 20
-563.1461328579
 10
1294.6656743298
 20
-565.1640673568
 10
1300.1284674214
 20
-568.0132937101
 10
1305.4163997509
 20
-571.1687544285
 10
1310.5236890419
 20
-574.626999062
 10
1315.4447505485
 20
-578.3842460708
 10
1320.1742031623
 20
-582.4363869606
 10
1324.7068752962
 20
-586.7789907747
 10
1329.0378105398
 20
-591.4073089397
 10
1333.1622730791
 20
-596.3162804575
 10
1337.0757528747
 20
-601.5005374399
 10
1340.7739705941
 20
-606.954410978
 10
1344.2528822903
 20
-612.6719373412
 10
1347.5086838246
 20
-618.6468644983
 10
1350.5378150257
 20
-624.8726589543
 10
1353.3369635832
 20
-631.3425128941
 10
1355.9030686692
 20
-638.0493516277
 10
1358.2333242855
 20
-644.9858413253
 10
1360.3251823318
 20
-652.1443970372
 10
1362.176355392
 20
-659.5171909878
 10
1363.7848192356
 20
-667.0961611354
 10
1365.1488150309
 20
-674.8730199871
 10
1366.2668512686
 20
-682.8392636622
 10
1367.1377053924
 20
-690.98618119
 10
1367.7604251363
 20
-699.3048640359
 10
1368.1343295652
 20
-707.7862158423
 10
1368.2590098202
 20
-716.4209623756
 10
1368.1343295652
 20
-725.1996616671
 10
1367.7604251363
 20
-734.1127143381
 10
1367.1377053924
 20
-743.1503740964
 10
1366.2668512686
 20
-752.3027583937
 10
1365.1488150309
 20
-761.5598592321
 10
1363.7848192356
 20
-770.9115541078
 10
1362.176355392
 20
-780.3476170798
 10
1360.3251823318
 20
-789.8577299516
 10
1358.2333242855
 20
-799.4314935546
 10
1355.9030686692
 20
-809.0584391188
 10
1353.3369635832
 20
-818.7280397205
 10
1350.5378150257
 20
-828.4297217935
 10
1347.5086838245
 20
-838.1528766909
 10
1344.2528822903
 20
-847.8868722854
 10
1340.7739705941
 20
-857.6210645959
 10
1337.0757528747
 20
-867.344809426
 10
1333.1622730791
 20
-877.0474740035
 10
1329.0378105398
 20
-886.7184486071
 10
1324.7068752962
 20
-896.347158168
 10
1320.1742031623
 20
-905.9230738338
 10
1315.4447505485
 20
-915.4357244812
 10
1310.5236890419
 20
-924.8747081664
 10
1305.4163997509
 20
-934.2297034994
 10
1300.1284674214
 20
-943.49048093
 10
1294.6656743298
 20
-952.6469139342
 10
1289.0339939601
 20
-961.6889900869
 10
1283.2395844722
 20
-970.6068220106
 10
1277.2887819676
 20
-979.3906581869
 10
1271.1880935617
 20
-988.03089362
 10
1264.9441902675
 20
-996.5180803394
 10
1258.5638997017
 20
-1004.8429377308
 10
1252.0541986183
 20
-1012.9963626851
 10
1245.4222052799
 20
-1020.9694395516
 10
1238.6751716739
 20
-1028.753449888
 10
1231.8204755823
 20
-1036.3398819932
 10
1224.8656125149
 20
-1043.7204402151
 10
1217.8181875121
 20
-1050.8870540216
 10
1210.6859068299
 20
-1057.8318868257
 10
1203.4765695123
 20
-1064.5473445548
 10
1196.1980588639
 20
-1071.0260839544
 10
1188.8583338293
 20
-1077.2610206181
 10
1181.46542029
 20
-1083.2453367341
 10
1174.0274022884
 20
-1088.9724885408
 10
1166.552413188
 20
-1094.4362134816
 10
1159.0486267796
 20
-1099.6305370535
 10
1151.5242483436
 20
-1104.5497793401
 10
1143.9875056771
 20
-1109.188561222
 10
1136.4466400978
 20
-1113.5418102594
 10
1128.9098974314
 20
-1117.6047662385
 10
1121.3855189953
 20
-1121.3729863764
 10
1113.881732587
 20
-1124.8423501797
 10
1106.4067434866
 20
-1128.0090639502
 10
1098.968725485
 20
-1130.8696649327
 10
1091.5758119457
 20
-1133.4210251022
 10
1084.236086911
 20
-1135.6603545837
 10
1076.9575762627
 20
-1137.5852047032
 10
1069.7482389451
 20
-1139.1934706656
 10
1062.6159582629
 20
-1140.4833938555
 10
1055.5685332601
 20
-1141.4535637609
 10
1048.6136701926
 20
-1142.1029195151
 10
1041.7589741011
 20
-1142.4307510574
 10
1035.0119404951
 20
-1142.4366999086
 10
1028.3799471567
 20
-1142.1207595638
 10
1021.8702460733
 20
-1141.4832754991
 10
1015.4899555075
 20
-1140.524944794
 10
1009.2460522133
 20
-1139.246815369
 10
1003.1453638074
 20
-1137.65028484
 10
997.1945613028
 20
-1135.7370989895
 10
991.4001518148
 20
-1133.5093498582
 10
985.7684714452
 20
-1130.9694734571
 10
980.3056783536
 20
-1128.1202471038
 10
975.0177460241
 20
-1124.9647863854
 10
969.9104567331
 20
-1121.506541752
 10
968.517418023
 20
-1120.4873569266
  0
LWPOLYLINE
  5
BE
330
1F
100
AcDbEntity
  8
0
  6
Continuous
 62
     7
370
    25
100
AcDbPolyline
 90
      101
 70
   128
 43
0.0
 10
1348.0583933265
 20
-569.6901156812
 10
1348.7587609669
 20
-570.0977255637
 10
1354.1495484439
 20
-573.4640358193
 10
1359.3586939007
 20
-577.1304222602
 10
1364.3808987884
 20
-581.0931555747
 10
1369.211054707
 20
-585.3482050178
 10
1373.8442486015
 20
-589.8912425115
 10
1378.2757677595
 20
-594.717647047
 10
1382.5011046046
 20
-599.8225093852
 10
1386.5159612812
 20
-605.2006370501
 10
1390.3162540266
 20
-610.8465596101
 10
1393.8981173243
 20
-616.7545342431
 10
1397.2579078362
 20
-622.9185515768
 10
1400.3922081084
 20
-629.3323418022
 10
1403.2978300473
 20
-635.9893810505
 10
1405.9718181623
 20
-642.882898029
 10
1408.4114525721
 20
-650.0058809086
 10
1410.6142517715
 20
-657.3510844562
 10
1412.5779751549
 20
-664.9110374039
 10
1414.3006252961
 20
-672.6780500489
 10
1415.7804499794
 20
-680.6442220747
 10
1417.0159439821
 20
-688.8014505876
 10
1418.0058506058
 20
-697.1414383582
 10
1418.7491629542
 20
-705.6557022611
 10
1419.2451249576
 20
-714.3355819038
 10
1419.4932321421
 20
-723.1722484357
 10
1419.4932321421
 20
-732.1567135283
 10
1419.2451249576
 20
-741.2798385179
 10
1418.7491629542
 20
-750.5323437012
 10
1418.0058506058
 20
-759.9048177741
 10
1417.0159439821
 20
-769.3877274045
 10
1415.7804499794
 20
-778.9714269297
 10
1414.3006252961
 20
-788.6461681669
 10
1412.5779751549
 20
-798.4021103293
 10
1410.6142517715
 20
-808.2293300354
 10
1408.4114525721
 20
-818.1178314029
 10
1405.9718181623
 20
-828.0575562161
 10
1403.2978300473
 20
-838.0383941567
 10
1400.3922081084
 20
-848.0501930875
 10
1397.2579078362
 20
-858.0827693792
 10
1393.8981173243
 20
-868.1259182684
 10
1390.3162540266
 20
-878.1694242376
 10
1386.5159612812
 20
-888.2030714061
 10
1382.5011046046
 20
-898.2166539214
 10
1378.2757677595
 20
-908.1999863398
 10
1373.8442486015
 20
-918.1429139869
 10
1369.211054707
 20
-928.0353232866
 10
1364.3808987884
 20
-937.8671520482
 10
1359.3586939007
 20
-947.6283997011
 10
1354.1495484439
 20
-957.3091374675
 10
1348.7587609668
 20
-966.899518461
 10
1343.1918147782
 20
-976.3897877027
 10
1337.4543723684
 20
-985.7702920439
 10
1331.5522696505
 20
-995.0314899845
 10
1325.4915100237
 20
-1004.1639613784
 10
1319.2782582675
 20
-1013.1584170156
 10
1312.9188342702
 20
-1022.0057080702
 10
1306.4197066014
 20
-1030.6968354071
 10
1299.787485932
 20
-1039.2229587347
 10
1293.0289183102
 20
-1047.5754055975
 10
1286.1508782995
 20
-1055.7456801974
 10
1279.1603619864
 20
-1063.725472035
 10
1272.0644798639
 20
-1071.5066643628
 10
1264.8704495995
 20
-1079.0813424414
 10
1257.585588693
 20
-1086.4418015902
 10
1250.2173070341
 20
-1093.5805550239
 10
1242.7730993647
 20
-1100.490341468
 10
1235.2605376559
 20
-1107.1641325448
 10
1227.6872634061
 20
-1113.5951399223
 10
1220.060979868
 20
-1119.776822219
 10
1212.3894442136
 20
-1125.7028916576
 10
1204.6804596436
 20
-1131.3673204609
 10
1196.9418674503
 20
-1136.7643469824
 10
1189.1815390418
 20
-1141.8884815677
 10
1181.4073679354
 20
-1146.7345121375
 10
1173.6272617289
 20
-1151.29750949
 10
1165.8491340569
 20
-1155.5728323139
 10
1158.0808965414
 20
-1159.5561319099
 10
1150.3304507447
 20
-1163.2433566138
 10
1142.6056801319
 20
-1166.6307559178
 10
1134.9144420523
 20
-1169.7148842854
 10
1127.2645597473
 20
-1172.4926046559
 10
1119.6638143925
 20
-1174.9610916355
 10
1112.1199371833
 20
-1177.1178343711
 10
1104.6406014709
 20
-1178.9606391041
 10
1097.2334149576
 20
-1180.4876314022
 10
1089.9059119577
 20
-1181.6972580656
 10
1082.6655457349
 20
-1182.588288707
 10
1075.5196809202
 20
-1183.1598170033
 10
1068.4755860215
 20
-1183.4112616171
 10
1061.5404260302
 20
-1183.3423667883
 10
1054.7212551329
 20
-1182.9532025941
 10
1048.0250095367
 20
-1182.2441648779
 10
1041.4585004134
 20
-1181.2159748466
 10
1035.0284069719
 20
-1179.8696783366
 10
1028.7412696641
 20
-1178.2066447509
 10
1022.603483532
 20
-1176.2285656652
 10
1016.6212917034
 20
-1173.937453108
 10
1010.8007790414
 20
-1171.3356375138
 10
1005.1478659549
 20
-1168.4257653526
 10
1003.0864305671
 20
-1167.2638307239
  0
LWPOLYLINE
  5
BF
330
1F
100
AcDbEntity
  8
0
  6
Continuous
 62
     7
370
    25
100
AcDbPolyline
 90
      127
 70
   128
 43
0.0
 10
1227.3423196791
 20
-534.6422875463
 10
1229.5151105402
 20
-534.3610814676
 10
1236.7091408046
 20
-533.6297090022
 10
1243.805022927
 20
-533.2181702186
 10
1250.7955392402
 20
-533.1268837188
 10
1257.6735792509
 20
-533.3559423559
 10
1264.4321468727
 20
-533.90511314
 10
1271.0643675421
 20
-534.773837475
 10
1277.5634952109
 20
-535.9612317269
 10
1283.9229192081
 20
-537.4660881224
 10
1290.1361709644
 20
-539.2868759776
 10
1296.1969305911
 20
-541.4217432547
 10
1302.099033309
 20
-543.8685184463
 10
1307.8364757188
 20
-546.6247127835
 10
1313.4034219075
 20
-549.6875227681
 10
1318.7942093845
 20
-553.0538330237
 10
1324.0033548414
 20
-556.7202194647
 10
1329.0255597291
 20
-560.6829527792
 10
1333.8557156476
 20
-564.9380022222
 10
1338.4889095422
 20
-569.4810397159
 10
1342.9204287002
 20
-574.3074442514
 10
1347.1457655452
 20
-579.4123065896
 10
1351.1606222219
 20
-584.7904342545
 10
1354.9609149673
 20
-590.4363568146
 10
1358.542778265
 20
-596.3443314475
 10
1361.9025687769
 20
-602.5083487812
 10
1365.0368690491
 20
-608.9221390067
 10
1367.942490988
 20
-615.579178255
 10
1370.6164791029
 20
-622.4726952334
 10
1373.0561135128
 20
-629.5956781131
 10
1375.2589127121
 20
-636.9408816607
 10
1377.2226360956
 20
-644.5008346084
 10
1378.9452862368
 20
-652.2678472533
 10
1380.42511092
 20
-660.2340192791
 10
1381.6606049228
 20
-668.391247792
 10
1382.6505115464
 20
-676.7312355626
 10
1383.3938238948
 20
-685.2454994655
 10
1383.8897858983
 20
-693.9253791082
 10
1384.1378930827
 20
-702.7620456402
 10
1384.1378930827
 20
-711.7465107327
 10
1383.8897858983
 20
-720.8696357224
 10
1383.3938238948
 20
-730.1221409056
 10
1382.6505115464
 20
-739.4946149785
 10
1381.6606049228
 20
-748.9775246089
 10
1380.42511092
 20
-758.5612241341
 10
1378.9452862368
 20
-768.2359653713
 10
1377.2226360956
 20
-777.9919075337
 10
1375.2589127121
 20
-787.8191272398
 10
1373.0561135128
 20
-797.7076286074
 10
1370.6164791029
 20
-807.6473534206
 10
1367.942490988
 20
-817.6281913611
 10
1365.0368690491
 20
-827.639990292
 10
1361.9025687769
 20
-837.6725665837
 10
1358.542778265
 20
-847.7157154728
 10
1354.9609149673
 20
-857.759221442
 10
1351.1606222219
 20
-867.7928686106
 10
1347.1457655452
 20
-877.8064511258
 10
1342.9204287002
 20
-887.7897835442
 10
1338.4889095422
 20
-897.7327111913
 10
1333.8557156476
 20
-907.625120491
 10
1329.0255597291
 20
-917.4569492526
 10
1324.0033548414
 20
-927.2181969056
 10
1318.7942093845
 20
-936.8989346719
 10
1313.4034219075
 20
-946.4893156654
 10
1307.8364757188
 20
-955.9795849071
 10
1302.099033309
 20
-965.3600892483
 10
1296.1969305911
 20
-974.6212871889
 10
1290.1361709644
 20
-983.7537585829
 10
1283.9229192081
 20
-992.74821422
 10
1277.5634952109
 20
-1001.5955052747
 10
1271.0643675421
 20
-1010.2866326115
 10
1264.4321468727
 20
-1018.8127559391
 10
1257.6735792509
 20
-1027.1652028019
 10
1250.7955392402
 20
-1035.3354774019
 10
1243.805022927
 20
-1043.3152692394
 10
1236.7091408046
 20
-1051.0964615672
 10
1229.5151105402
 20
-1058.6711396459
 10
1222.2302496337
 20
-1066.0315987947
 10
1214.8619679748
 20
-1073.1703522283
 10
1207.4177603054
 20
-1080.0801386724
 10
1199.9051985966
 20
-1086.7539297492
 10
1192.3319243467
 20
-1093.1849371267
 10
1184.7056408087
 20
-1099.3666194234
 10
1177.0341051543
 20
-1105.2926888621
 10
1169.3251205843
 20
-1110.9571176653
 10
1161.5865283909
 20
-1116.3541441869
 10
1153.8261999824
 20
-1121.4782787721
 10
1146.0520288761
 20
-1126.324309342
 10
1138.2719226696
 20
-1130.8873066944
 10
1130.4937949975
 20
-1135.1626295183
 10
1122.725557482
 20
-1139.1459291143
 10
1114.9751116853
 20
-1142.8331538182
 10
1107.2503410726
 20
-1146.2205531222
 10
1099.559102993
 20
-1149.3046814898
 10
1091.909220688
 20
-1152.0824018603
 10
1084.3084753331
 20
-1154.5508888399
 10
1076.7645981239
 20
-1156.7076315755
 10
1069.2852624116
 20
-1158.5504363085
 10
1061.8780758982
 20
-1160.0774286066
 10
1054.5505728984
 20
-1161.28705527
 10
1047.3102066755
 20
-1162.1780859115
 10
1040.1643418608
 20
-1162.7496142077
 10
1033.1202469622
 20
-1163.0010588215
 10
1026.1850869708
 20
-1162.9321639927
 10
1019.3659160736
 20
-1162.5429997985
 10
1012.6696704774
 20
-1161.8339620824
 10
1006.1031613541
 20
-1160.805772051
 10
999.6730679126
 20
-1159.4594755411
 10
993.3859306047
 20
-1157.7964419553
 10
987.2481444727
 20
-1155.8183628696
 10
981.2659526441
 20
-1153.5272503124
 10
975.4454399821
 20
-1150.9254347182
 10
969.7925268955
 20
-1148.0155625571
 10
964.3129633174
 20
-1144.8005936427
 10
959.0123228558
 20
-1141.2837981218
 10
953.8959971251
 20
-1137.468753148
 10
948.9691902616
 20
-1133.3593392431
 10
944.2369136298
 20
-1128.9597363501
 10
939.7039807256
 20
-1124.2744195814
 10
935.3750022796
 20
-1119.3081546669
 10
931.2543815676
 20
-1114.0659931065
 10
927.3463099319
 20
-1108.553267032
 10
923.6547625174
 20
-1102.7755837832
 10
920.1834942289
 20
-1096.7388202047
 10
916.9360359114
 20
-1090.4491166677
 10
913.9156907586
 20
-1083.9128708247
 10
912.3679188987
 20
-1080.2530708461
  0
ARC
  5
C0
330
1F
100
AcDbEntity
  8
0
  6
Continuous
 62
     7
370
    25
100
AcDbCircle
 10
1459.9861938432
 20
-1032.6655546391
 30
0.0
 40
497.314038470661
100
AcDbArc
 50
139.9525768084
 51
160.0527997243
  0
ENDSEC
  0
SECTION
  2
OBJECTS
  0
DICTIONARY
  5
C
330
0
100
AcDbDictionary
281
     1
  3
ACAD_GROUP
350
D
  3
ACAD_LAYOUT
350
1A
  3
ACAD_MLINESTYLE
350
17
  3
ACAD_PLOTSETTINGS
350
19
  3
ACAD_PLOTSTYLENAME
350
E
  3
ACAD_SCALELIST
350
47
  0
DICTIONARY
  5
D
102
{ACAD_REACTORS
330
C
102
}
330
C
100
AcDbDictionary
281
     1
  0
DICTIONARY
  5
1A
102
{ACAD_REACTORS
330
C
102
}
330
C
100
AcDbDictionary
281
     1
  3
Layout1
350
1E
  3
Layout2
350
26
  3
Model
350
22
  0
DICTIONARY
  5
17
102
{ACAD_REACTORS
330
C
102
}
330
C
100
AcDbDictionary
281
     1
  3
Standard
350
18
  0
DICTIONARY
  5
19
102
{ACAD_REACTORS
330
C
102
}
330
C
100
AcDbDictionary
281
     1
  0
ACDBDICTIONARYWDFLT
  5
E
102
{ACAD_REACTORS
330
C
102
}
330
C
100
AcDbDictionary
281
     1
  3
Normal
350
F
100
AcDbDictionaryWithDefault
340
F
  0
DICTIONARY
  5
47
102
{ACAD_REACTORS
330
C
102
}
330
C
100
AcDbDictionary
281
     1
  3
A0
350
48
  3
A1
350
49
  3
A2
350
4A
  3
A3
350
4B
  3
A4
350
4C
  3
A5
350
4D
  3
A6
350
4E
  3
A7
350
4F
  3
A8
350
50
  3
A9
350
51
  3
B0
350
52
  3
B1
350
53
  3
B2
350
54
  3
B3
350
55
  3
B4
350
56
  3
B5
350
57
  3
B6
350
58
  3
B7
350
59
  3
B8
350
5A
  3
B9
350
5B
  3
C0
350
5C
  3
C1
350
5D
  3
C2
350
5E
  3
C3
350
5F
  3
C4
350
60
  3
C5
350
61
  3
C6
350
62
  3
C7
350
63
  3
C8
350
64
  3
C9
350
65
  3
D0
350
66
  3
D1
350
67
  3
D2
350
68
  0
LAYOUT
  5
1E
102
{ACAD_REACTORS
330
1A
102
}
330
1A
100
AcDbPlotSettings
  1

  2
none_device
  4

  6

 40
0.0
 41
0.0
 42
0.0
 43
0.0
 44
0.0
 45
0.0
 46
0.0
 47
0.0
 48
0.0
 49
0.0
140
0.0
141
0.0
142
1.0
143
1.0
 70
   688
 72
     1
 73
     0
 74
     5
  7

 75
    16
147
1.0
148
0.0
149
0.0
100
AcDbLayout
  1
Layout1
 70
     1
 71
     1
 10
0.0
 20
0.0
 11
420.0
 21
297.0
 12
0.0
 22
0.0
 32
0.0
 14
1.0000000000E+20
 24
1.0000000000E+20
 34
1.0000000000E+20
 15
-1.0000000000E+20
 25
-1.0000000000E+20
 35
-1.0000000000E+20
146
0.0
 13
0.0
 23
0.0
 33
0.0
 16
1.0
 26
0.0
 36
0.0
 17
0.0
 27
1.0
 37
0.0
 76
     0
330
1B
  0
LAYOUT
  5
26
102
{ACAD_REACTORS
330
1A
102
}
330
1A
100
AcDbPlotSettings
  1

  2
none_device
  4

  6

 40
0.0
 41
0.0
 42
0.0
 43
0.0
 44
0.0
 45
0.0
 46
0.0
 47
0.0
 48
0.0
 49
0.0
140
0.0
141
0.0
142
1.0
143
1.0
 70
   688
 72
     1
 73
     0
 74
     5
  7

 75
    16
147
1.0
148
0.0
149
0.0
100
AcDbLayout
  1
Layout2
 70
     1
 71
     2
 10
0.0
 20
0.0
 11
0.0
 21
0.0
 12
0.0
 22
0.0
 32
0.0
 14
0.0
 24
0.0
 34
0.0
 15
0.0
 25
0.0
 35
0.0
146
0.0
 13
0.0
 23
0.0
 33
0.0
 16
1.0
 26
0.0
 36
0.0
 17
0.0
 27
1.0
 37
0.0
 76
     0
330
23
  0
LAYOUT
  5
22
102
{ACAD_REACTORS
330
1A
102
}
330
1A
100
AcDbPlotSettings
  1

  2
none_device
  4
Letter_(8.50_x_11.00_Inches)
  6

 40
6.35
 41
6.35
 42
6.35000508
 43
6.35000508
 44
215.9
 45
279.4
 46
0.0
 47
0.0
 48
0.0
 49
0.0
140
0.0
141
0.0
142
1.0
143
1.0
 70
  1712
 72
     1
 73
     0
 74
     0
  7

 75
     0
147
1.0
148
0.0
149
0.0
100
AcDbLayout
  1
Model
 70
     1
 71
     0
 10
0.0
 20
0.0
 11
279.4
 21
215.9
 12
0.0
 22
0.0
 32
0.0
 14
0.0
 24
0.0
 34
0.0
 15
279.4
 25
215.9
 35
0.0
146
0.0
 13
0.0
 23
0.0
 33
0.0
 16
1.0
 26
0.0
 36
0.0
 17
0.0
 27
1.0
 37
0.0
 76
     0
330
1F
331
29
  0
MLINESTYLE
  5
18
102
{ACAD_REACTORS
330
17
102
}
330
17
100
AcDbMlineStyle
  2
Standard
 70
     0
  3

 62
   256
 51
90.0
 52
90.0
 71
     2
 49
0.5
 62
   256
  6
BYLAYER
 49
-0.5
 62
   256
  6
BYLAYER
  0
ACDBPLACEHOLDER
  5
F
102
{ACAD_REACTORS
330
E
102
}
330
E
  0
SCALE
  5
48
102
{ACAD_REACTORS
330
47
102
}
330
47
100
AcDbScale
 70
     0
300
1:1
140
1.0
141
1.0
290
     1
  0
SCALE
  5
49
102
{ACAD_REACTORS
330
47
102
}
330
47
100
AcDbScale
 70
     0
300
1:2
140
1.0
141
2.0
290
     0
  0
SCALE
  5
4A
102
{ACAD_REACTORS
330
47
102
}
330
47
100
AcDbScale
 70
     0
300
1:4
140
1.0
141
4.0
290
     0
  0
SCALE
  5
4B
102
{ACAD_REACTORS
330
47
102
}
330
47
100
AcDbScale
 70
     0
300
1:5
140
1.0
141
5.0
290
     0
  0
SCALE
  5
4C
102
{ACAD_REACTORS
330
47
102
}
330
47
100
AcDbScale
 70
     0
300
1:8
140
1.0
141
8.0
290
     0
  0
SCALE
  5
4D
102
{ACAD_REACTORS
330
47
102
}
330
47
100
AcDbScale
 70
     0
300
1:10
140
1.0
141
10.0
290
     0
  0
SCALE
  5
4E
102
{ACAD_REACTORS
330
47
102
}
330
47
100
AcDbScale
 70
     0
300
1:16
140
1.0
141
16.0
290
     0
  0
SCALE
  5
4F
102
{ACAD_REACTORS
330
47
102
}
330
47
100
AcDbScale
 70
     0
300
1:20
140
1.0
141
20.0
290
     0
  0
SCALE
  5
50
102
{ACAD_REACTORS
330
47
102
}
330
47
100
AcDbScale
 70
     0
300
1:30
140
1.0
141
30.0
290
     0
  0
SCALE
  5
51
102
{ACAD_REACTORS
330
47
102
}
330
47
100
AcDbScale
 70
     0
300
1:40
140
1.0
141
40.0
290
     0
  0
SCALE
  5
52
102
{ACAD_REACTORS
330
47
102
}
330
47
100
AcDbScale
 70
     0
300
1:50
140
1.0
141
50.0
290
     0
  0
SCALE
  5
53
102
{ACAD_REACTORS
330
47
102
}
330
47
100
AcDbScale
 70
     0
300
1:100
140
1.0
141
100.0
290
     0
  0
SCALE
  5
54
102
{ACAD_REACTORS
330
47
102
}
330
47
100
AcDbScale
 70
     0
300
2:1
140
2.0
141
1.0
290
     0
  0
SCALE
  5
55
102
{ACAD_REACTORS
330
47
102
}
330
47
100
AcDbScale
 70
     0
300
4:1
140
4.0
141
1.0
290
     0
  0
SCALE
  5
56
102
{ACAD_REACTORS
330
47
102
}
330
47
100
AcDbScale
 70
     0
300
8:1
140
8.0
141
1.0
290
     0
  0
SCALE
  5
57
102
{ACAD_REACTORS
330
47
102
}
330
47
100
AcDbScale
 70
     0
300
10:1
140
10.0
141
1.0
290
     0
  0
SCALE
  5
58
102
{ACAD_REACTORS
330
47
102
}
330
47
100
AcDbScale
 70
     0
300
100:1
140
100.0
141
1.0
290
     0
  0
SCALE
  5
59
102
{ACAD_REACTORS
330
47
102
}
330
47
100
AcDbScale
 70
     0
300
1/128" = 1'-0"
140
0.0078125
141
12.0
290
     0
  0
SCALE
  5
5A
102
{ACAD_REACTORS
330
47
102
}
330
47
100
AcDbScale
 70
     0
300
1/64" = 1'-0"
140
0.015625
141
12.0
290
     0
  0
SCALE
  5
5B
102
{ACAD_REACTORS
330
47
102
}
330
47
100
AcDbScale
 70
     0
300
1/32" = 1'-0"
140
0.03125
141
12.0
290
     0
  0
SCALE
  5
5C
102
{ACAD_REACTORS
330
47
102
}
330
47
100
AcDbScale
 70
     0
300
1/16" = 1'-0"
140
0.0625
141
12.0
290
     0
  0
SCALE
  5
5D
102
{ACAD_REACTORS
330
47
102
}
330
47
100
AcDbScale
 70
     0
300
3/32" = 1'-0"
140
0.09375
141
12.0
290
     0
  0
SCALE
  5
5E
102
{ACAD_REACTORS
330
47
102
}
330
47
100
AcDbScale
 70
     0
300
1/8" = 1'-0"
140
0.125
141
12.0
290
     0
  0
SCALE
  5
5F
102
{ACAD_REACTORS
330
47
102
}
330
47
100
AcDbScale
 70
     0
300
3/16" = 1'-0"
140
0.1875
141
12.0
290
     0
  0
SCALE
  5
60
102
{ACAD_REACTORS
330
47
102
}
330
47
100
AcDbScale
 70
     0
300
1/4" = 1'-0"
140
0.25
141
12.0
290
     0
  0
SCALE
  5
61
102
{ACAD_REACTORS
330
47
102
}
330
47
100
AcDbScale
 70
     0
300
3/8" = 1'-0"
140
0.375
141
12.0
290
     0
  0
SCALE
  5
62
102
{ACAD_REACTORS
330
47
102
}
330
47
100
AcDbScale
 70
     0
300
1/2" = 1'-0"
140
0.5
141
12.0
290
     0
  0
SCALE
  5
63
102
{ACAD_REACTORS
330
47
102
}
330
47
100
AcDbScale
 70
     0
300
3/4" = 1'-0"
140
0.75
141
12.0
290
     0
  0
SCALE
  5
64
102
{ACAD_REACTORS
330
47
102
}
330
47
100
AcDbScale
 70
     0
300
1" = 1'-0"
140
1.0
141
12.0
290
     0
  0
SCALE
  5
65
102
{ACAD_REACTORS
330
47
102
}
330
47
100
AcDbScale
 70
     0
300
1-1/2" = 1'-0"
140
1.5
141
12.0
290
     0
  0
SCALE
  5
66
102
{ACAD_REACTORS
330
47
102
}
330
47
100
AcDbScale
 70
     0
300
3" = 1'-0"
140
3.0
141
12.0
290
     0
  0
SCALE
  5
67
102
{ACAD_REACTORS
330
47
102
}
330
47
100
AcDbScale
 70
     0
300
6" = 1'-0"
140
6.0
141
12.0
290
     0
  0
SCALE
  5
68
102
{ACAD_REACTORS
330
47
102
}
330
47
100
AcDbScale
 70
     0
300
1'-0" = 1'-0"
140
12.0
141
12.0
290
     0
  0
ENDSEC
  0
EOF
